You Belong To Me

TablEdited by George Wixon tempo = 70 bpm key = C

Tuning : B D E F# G# B E G# D# F# 	Time Signature: 4/4

 |       |       |       |        |       |       |       |        
|------------8-------8-----------|--------------------------------|
|--------------------------------|--------------------------------|
|----------------8-----------8---|--------------------------------|
|--------8---------------8-------|--------------------------------|
|----------------8---------------|10A---------10--10A-----9A------|
|--------8---------------8-------|10B---------10B-10B-----9B------|
|--------------------------------|10----------10--10------9-------|
|--------------------------------|--------------------------------|
|--------------------------------|--------------------------------|
|--------------------------------|--------------------------------|

 |       |       |       |        |       |       |       |        
|--------------------------------|--------------------------------|
|--------------------------------|--------------------------------|
|--------------------------------|--------------------------------|
|----------------------------8---|--------------------------------|
|8A----------------------8A------|8-----------8A--8-------7-------|
|8B--------------8B--------------|8-----------8B--8-------7-------|
|--------------------------------|--------------------------------|
|8-------8-----------------------|8-----------8---8-------7-------|
|--------------------------------|--------------------------------|
|--------------------------------|--------------------------------|

 |       |       |       |        |       |       |       |        
|--------------------------------|--------------------------------|
|--------------------------------|--------------------------------|
|--------------------------------|--------------------------------|
|--------------------------------|--------------------------------|
|6-----------------------6-------|3A--------------6A--------------|
|6---------------6-----------6---|3B--------------6---------------|
|--------------------------------|--------------------------------|
|6D------6D----------------------|3---------------6F--------------|
|--------------------------------|--------------------------------|
|--------------------------------|--------------------------------|

 |       |       |       |        |       |       |       |        
|--------------------------------|--------------------------------|
|--------------------------------|--------------------------------|
|--------------------------------|--------------------------------|
|--------------------------------|--------------------------------|
|11A-----------------------------|15A---------15A-15------13------|
|11------------------------------|15B-----------------------------|
|--------------------------------|--------------------------------|
|11F-----------------------------|15------15----------------------|
|--------------------------------|--------------------------------|
|--------------------------------|--------------------------------|

 |       |       |       |        |       |       |       |        
|--------------------------------|------------8-------8-------8---|
|--------------------------------|--------------------------------|
|--------------------------------|----------------8---------------|
|--------------------------------|--------8---------------8-------|
|11A-----------------------------|----------------8---------------|
|11------------------------------|--------8---------------8-------|
|--------------------------------|--------------------------------|
|11F-----------------------------|--------------------------------|
|--------------------------------|--------------------------------|
|--------------------------------|--------------------------------|

 |       |       |       |        |       |       |       |        
|--------------------------------|--------------------------------|
|--------------------------------|--------------------------------|
|10B-----10------10B-----9B------|8B------------------------------|
|10------10------10------9-------|8---------------------------8---|
|10A-----10A-----10A-----9A------|8A----------------------8A------|
|--------------------------------|--------------------8B----------|
|--------------------------------|--------------------------------|
|--------------------------------|----------------8---------------|
|--------------------------------|--------------------------------|
|--------------------------------|--------------------------------|

 |       |       |       |        |       |       |       |        
|--------------------------------|--------------------------------|
|--------------------------------|--------------------------------|
|--------------------------------|--------------------------------|
|--------------------------------|--------------------------------|
|8-------8A------8-------7-------|6-----------------------6-------|
|8-------8B------8-------7-------|6---------------6-----------6---|
|--------------------------------|--------------------------------|
|8-------8-------8-------7-------|6D------6D----------------------|
|--------------------------------|--------------------------------|
|--------------------------------|--------------------------------|

 |       |       |       |        |       |       |       |        
|--------------------------------|--------------------------------|
|--------------------------------|--------------------------------|
|--------------------------------|--------------------------------|
|--------------------------------|--------------------------------|
|3A--------------6A--------------|11A-----------------------------|
|3B--------------6---------------|11------------------------------|
|--------------------------------|--------------------------------|
|3---------------6F--------------|11F-----------------------------|
|--------------------------------|--------------------------------|
|--------------------------------|--------------------------------|

 |       |       |       |        |       |       |       |        
|--------------------------------|--------------------------------|
|--------------------------------|--------------------------------|
|--------------------------------|--------------------------------|
|--------------------------------|--------------------------------|
|15A---------15A-15------13------|11A-----------------------------|
|15B-----------------------------|11------------------------------|
|--------------------------------|--------------------------------|
|15------15----------------------|11F-----------------------------|
|--------------------------------|--------------------------------|
|--------------------------------|--------------------------------|

 |       |       |       |        |       |       |       |        
|--------------------------------|--------------------------------|
|--------------------------------|--------------------------------|
|--------------------------------|--------------------------------|
|--------------------------------|--------------------------------|
|3A------3A------2A------1A------|1-----------------------1-------|
|3B------3B------2B------1B------|1B--------------1B--------------|
|--------------------------------|--------------------------------|
|3-------3-------2-------1-------|1D------1D----------------------|
|--------------------------------|--------------------------------|
|--------------------------------|--------------------------------|

 |       |       |       |        |       |       |       |        
|--------------------------------|--------------------------------|
|--------------------------------|--------------------------------|
|1B--1---1B------1---------------|--------------------------------|
|1---1---1-------1---------------|--------------------------------|
|1A--1---1A------1---------------|1---------------2---------------|
|--------------------------------|1---------------2---------------|
|--------------------------------|--------------------------------|
|--------------------------------|1---------------2---------------|
|--------------------------------|--------------------------------|
|--------------------------------|--------------------------------|

 |       |       |       |        |       |       |       |        
|--------------------------------|--------------------------------|
|--------------------------------|--------------------------------|
|--------------------------------|--------------------------------|
|--------------------------------|--------3-----------------------|
|3-------------------------------|3---------------3---------------|
|3B----------------------3B------|--------------------3B----------|
|--------------------------------|--------------------------------|
|3D--------------3D--------------|------------------------3D------|
|--------------------------------|--------------------------------|
|--------------------------------|--------------------------------|

 |       |       |       |        |       |       |       |        
|--------------------------------|--------------------------------|
|--------------------------------|--------------------------------|
|--------------------------------|--------------------------------|
|--------------------------------|--------------------------------|
|8---------------8A--------------|9A--------------10A-------------|
|8B--------------8B--------------|9B--------------10B-------------|
|--------------------------------|--------------------------------|
|8D--------------8---------------|9---------------10--------------|
|--------------------------------|--------------------------------|
|--------------------------------|--------------------------------|

 |       |       |       |        |       |       |       |        
|------------8-------8-----------|--------------------------------|
|--------------------------------|--------------------------------|
|----------------8-----------8---|--------------------------------|
|--------8---------------8-------|--------------------------------|
|----------------8---------------|10A---------10--10A-----9A------|
|--------8---------------8-------|10B---------10B-10B-----9B------|
|--------------------------------|10----------10--10------9-------|
|--------------------------------|--------------------------------|
|--------------------------------|--------------------------------|
|--------------------------------|--------------------------------|

 |       |       |       |        |       |       |       |        
|--------------------------------|--------------------------------|
|--------------------------------|--------------------------------|
|--------------------------------|--------------------------------|
|----------------------------8---|--------------------------------|
|8A----------------------8A------|8-----------8A--8-------7-------|
|8B--------------8B--------------|8-----------8B--8-------7-------|
|--------------------------------|--------------------------------|
|8-------8-----------------------|8-----------8---8-------7-------|
|--------------------------------|--------------------------------|
|--------------------------------|--------------------------------|

 |       |       |       |        |       |       |       |        
|--------------------------------|--------------------------------|
|--------------------------------|--------------------------------|
|--------------------------------|--------------------------------|
|--------------------------------|--------------------------------|
|6-----------------------6-------|3A--------------6A--------------|
|6---------------6-----------6---|3B--------------6---------------|
|--------------------------------|--------------------------------|
|6D------6D----------------------|3---------------6F--------------|
|--------------------------------|--------------------------------|
|--------------------------------|--------------------------------|

 |       |       |       |        |       |       |       |        
|--------------------------------|--------------------------------|
|--------------------------------|--------------------------------|
|--------------------------------|--------------------------------|
|--------------------------------|--------------------------------|
|11A-----------------------------|15A-----15------13------10A-----|
|11------------------------------|15B-----15------13------10B-----|
|--------------------------------|--------------------------------|
|11F-----------------------------|15------15------13------10------|
|--------------------------------|--------------------------------|
|--------------------------------|--------------------------------|

 |       |       |       |        |       |       |       |        
|--------------------------------|--------------------------------|
|--------------------------------|--------------------------------|
|--------------------------------|--------------------------------|
|8---------------8---------------|8---------------3-------3-------|
|8---------------8A--------------|8---------------3-------3A------|
|8---------------8B--------------|8---------------3B------3B------|
|--------------------------------|--------------------------------|
|--------------------------------|--------------------------------|
|--------------------------------|--------------------------------|
|--------------------------------|--------------------------------|

Created with TablEdit, Tablature Editor