Wonderful World

TablEdited by George Wixon Standard E9 tuning D lowers strings 4 & 8 F raises strings 4 & 8 Tempo = 70
THE "/" IS TABLEDITS WAY OF SHOWING A SLIDE EXAMPLE FROM 2ND TO 3RD MEASURE:
8/A--9A WOULD BE 8A~~9A (SLIDE FROM 8A TO 9A)

Tuning : B D E Gb Ab B E Ab Eb Gb 	Time Signature: 4/4

 |       |       Bb      |        F       |       |       |        
|--------------------------------|--------------------------------|
|--------------------------------|--------------------------------|
|--------------------------------|--------------------------------|
|--------------------------------|----------------8/--------------|
|--------------------------------|------------8A--8/A-------------|
|--------------------------------|8B--------------8/B-------------|
|--------------------------------|--------------------------------|
|------------------------8-------|--------------------------------|
|--------------------------------|--------------------------------|
|----------------8---------------|--------------------------------|

 Bb      |       Am      |        Gm7     |       F       |        
|--------------------------------|--------------------------------|
|--------------------------------|--------------------------------|
|--------------------------------|--------------------------------|
|9F----------9F--8---------------|6-----------6---4F--------------|
|9A--------------8A--------------|6A--------------4A------4A------|
|9B------9B------8---------------|6-------6-------4---------------|
|--------------------------------|--------------------------------|
|--------------------------------|--------------------------------|
|--------------------------------|--------------------------------|
|--------------------------------|--------------------------------|

 A7      |       Dm      |        Db      |       |       |        
|--------------------------------|--------------------------------|
|--------------------------------|--------------------------------|
|--------------------------------|--------------------------------|
|--------------------------------|------------------------4-------|
|5-------------------------------|4A--------------4A--------------|
|5-----------5---6-----------6---|4B----------4B------------------|
|------------------------6-------|--------------------------------|
|--------5-------6D--------------|4-------4-----------------------|
|5-------------------------------|--------------------------------|
|----------------6---------------|--------------------------------|

 C       |       Gm6     |        F       |       |       |        
|------------------------3-------|--------------------------------|
|--------------------------------|--------------------------------|
|--------------------------------|--------------------------------|
|----------------------------3---|--------------------------------|
|3A--------------3A--------------|4/A-----------------------------|
|3B----------3B------------------|4/------------------------------|
|--------------------------------|--------------------------------|
|3-------3-----------------------|4/F-----------------------------|
|--------------------------------|--------------------------------|
|--------------------------------|--------------------------------|

 Bb      |       C7      |        F       |       |       |        
|--------------------------------|--------------------------------|
|--------------------------------|--------------------------------|
|--------------------------------|--------------------------------|
|--------------------------------|----------------8/--------------|
|6/--------------8---------------|------------8A--8/A-------------|
|6/--------------8---------------|8B--------------8/B-------------|
|--------------------------------|--------------------------------|
|6/--------------8-----------8---|--------------------------------|
|--------------------------------|--------------------------------|
|------------------------8-------|--------------------------------|

 Bb      |       Am      |        Gm7     |       F       |        
|--------------------------------|--------------------------------|
|--------------------------------|--------------------------------|
|--------------------------------|--------------------------------|
|9F----------9F--8---------------|6-----------6---4F--------------|
|9A--------------8A--------------|6A--------------4A------4A------|
|9B------9B------8---------------|6-------6-------4---------------|
|--------------------------------|--------------------------------|
|--------------------------------|--------------------------------|
|--------------------------------|--------------------------------|
|--------------------------------|--------------------------------|

 A7      |       Dm      |        Db      |       |       |        
|--------------------------------|--------------------------------|
|--------------------------------|--------------------------------|
|--------------------------------|--------------------------------|
|--------------------------------|------------------------4-------|
|5-------------------------------|4A--------------4A--------------|
|5-----------5---6-----------6---|4B----------4B------------------|
|------------------------6-------|--------------------------------|
|--------5-------6D--------------|4-------4-----------------------|
|5-------------------------------|--------------------------------|
|----------------6---------------|--------------------------------|

 C       |       Gm6     |        F       |       Bb      |        
|------------------------3-------|--------------------------------|
|--------------------------------|--------------------------------|
|--------------------------------|--------------------------------|
|----------------------------3---|--------------------------------|
|3A--------------3A--------------|4/A-------------6/--------------|
|3B----------3B------------------|4/--------------6/--------------|
|--------------------------------|--------------------------------|
|3-------3-----------------------|4/F-------------6/--------------|
|--------------------------------|--------------------------------|
|--------------------------------|--------------------------------|

 F       |       |       |        C7      |       |       |        
|--------------------------------|--------------------------------|
|--------------------------------|--------------------------------|
|--------------------------------|--------------------------------|
|--------------------------------|--------------------------------|
|8A----------------------8A------|8---------------------------8/--|
|8B----------------------8B------|8-------------------8/--8B------|
|--------------------------------|----------------8---------------|
|8-------------------------------|------------8-------------------|
|--------------------------------|--------------------------------|
|--------------------------------|--------------------------------|

 F       |       |       |        C7      |       |       |        
|--------------------------------|--------------------------------|
|--------------------------------|--------------------------------|
|--------------------------------|--------------------------------|
|--------------------------------|--------------------------------|
|8A----------------------8A------|8-------------------------------|
|------------------------8B------|----------------------------8---|
|--------------------------------|------------------------8-------|
|--------------------------------|--------------------8-----------|
|--------------------------------|8---------------8---------------|
|--------------------------------|--------------------------------|

 F       |       |       |        Dm      |       C       |        
|--------------------------------|--------------------------------|
|--------------------------------|--------------------------------|
|--------------------------------|6-----------6-------------------|
|----------------------------8---|6D--------------8---8-------8---|
|8A------------------------------|6-------6-----------8-----8-----|
|8B----------------------8B------|----------------8---------------|
|--------------------------------|--------------------------------|
|8-------------------------------|--------------------8-----------|
|--------------------------------|--------------------------------|
|--------------------------------|--------------------------------|

 Dm      |       C       |        F6      |       |       |        
|--------------------------------|----------------6---------------|
|--------------------------------|--------------------------------|
|6-----------6-------------------|6-----------6-------------------|
|6D--------------8---------------|6D----------------------6-------|
|6-------6-------8---------------|6-------6-----------------------|
|----------------8---------------|--------------------------------|
|--------------------------------|--------------------------------|
|--------------------------------|--------------------------------|
|--------------------------------|--------------------------------|
|--------------------------------|--------------------------------|

 Gm7     |       C7      |        F       |       |       |        
|--------6-----------------------|--------------------------------|
|--------6-----------------------|--------------------------------|
|6-------------------------------|--------------------------------|
|6-------------------------------|----------------8/--------------|
|----------------8---------------|------------8A--8/A-------------|
|----------------8---------------|8B--------------8/B-------------|
|--------------------------------|--------------------------------|
|----------------------------8---|--------------------------------|
|----------------8---------------|--------------------------------|
|------------------------8-------|--------------------------------|

 Bb      |       Am      |        Gm7     |       F       |        
|--------------------------------|--------------------------------|
|--------------------------------|--------------------------------|
|--------------------------------|--------------------------------|
|9F----------9F--8---------------|6-----------6---4F--------------|
|9A--------------8A--------------|6A--------------4A------4A------|
|9B------9B------8---------------|6-------6-------4---------------|
|--------------------------------|--------------------------------|
|--------------------------------|--------------------------------|
|--------------------------------|--------------------------------|
|--------------------------------|--------------------------------|

 A7      |       Dm      |        Db      |       |       |        
|--------------------------------|--------------------------------|
|--------------------------------|--------------------------------|
|--------------------------------|--------------------------------|
|--------------------------------|------------------------4-------|
|5-------------------------------|4A--------------4A--------------|
|5-----------5---6-----------6---|4B----------4B------------------|
|------------------------6-------|--------------------------------|
|--------5-------6D--------------|4-------4-----------------------|
|5-------------------------------|--------------------------------|
|----------------6---------------|--------------------------------|

 C       |       Gm6     |        F       |       Am7b5   |        
|------------------------3-------|--------------------------------|
|--------------------------------|--------------------------------|
|--------------------------------|--------------------------------|
|----------------------------3---|--------------------------------|
|3A--------------3A--------------|4/A-------------8A--------------|
|3B----------3B------------------|4/--------------8---------------|
|--------------------------------|--------------------------------|
|3-------3-----------------------|4/F-------------8---------------|
|--------------------------------|--------------------------------|
|--------------------------------|--------------------------------|

 D7      |       |       |        Gm7     |       |       |        
|--------------------------------|--------11----------------------|
|--------------------------------|--------------------------------|
|--------------------------------|11------------------------------|
|--------------------------------|----------------11D-------------|
|15/A------------15------15------|------------------------11------|
|15/B------------15B-------------|--------------------------------|
|--------------------------------|--------------------------------|
|15/D------------15D-------------|--------------------------------|
|--------------------------------|--------------------------------|
|--------------------------------|--------------------------------|

 C7      |       |       |        F       |       Bb      |        
|--------------------------------|--------------------------------|
|--------------------------------|--------------------------------|
|--------------------------------|--------------------------------|
|11/F----8-----------------------|--------------------------------|
|--------------------------------|8/A-------------9/A-------------|
|11/-----8---------------8/--8B--|8/B-------------9/--------------|
|--------------------8-----------|--------------------------------|
|----------------8---------------|8/--------------9/F-------------|
|------------8-------------------|--------------------------------|
|--------------------------------|--------------------------------|

 F       |       |       |        F       |       |       |        
|--------------------------------|--------------------------------|
|--------------------------------|--------------------------------|
|--------------------------------|--------------------------------|
|--------------------------------|--------------------------------|
|8A------------------------------|1/A---------------------1-------|
|8B------------------------------|1/B---------------------1-------|
|--------------------------------|--------------------------------|
|8-------------------------------|1/----------------------1D------|
|--------------------------------|--------------------------------|
|--------------------------------|--------------------------------|

Created with TablEdit, Tablature Editor